Navy and USMC Registration Numbers

Modifications by service branch

Moderator: Moderator

Navy and USMC Registration Numbers

Postby Tom Wolboldt » Sun Oct 01, 2006 9:28 am

Hi Group,

Here is a G503 database of Navy and Marine Corp registration numbers for all to see and use. I am enclosing all the vehicles that use the WW2 style of numbers so that we may see blocks of numbers used on the same type of vehicles.
Please post ( or email to me ) any numbers/data you have and I will add them to the list as I have time. Due to limited space I will not be able to acknowledge where the data comes from.


---Started 10/01/2006----Revised 10/05/2013

Navy--------USMC-------Vehicle Type
Number----Number
-----------------701--------late 20s Chevrolet light car
-----------------716--------39 Mack EHU COE 2 1/2 ton
-----------------790--------39 IHC D60 2 1/2 ton Tractor
------------------?----------08/23/39 GMC 4x4 # 1468 Data plate only
------------------?----------08/28/39 GMC 4x4 # 1463 Located in NZ
------------------?----------01/16/40 GMC 4x4 # 1582 Located in NZ
----------------3534-?-----WW2 jeep
----------------4254-------41 IHC K3 1 ton dually Pickup @ Camp Pendelton
--5248---------------------1932 Ford Model AA 1 ton canopy Express gray w/black numbers
----------------6306-?-----WW2 jeep
--6647---------------------1937 Chevrolet 1 ton canopy Express gray w/black numbers
--6725---------------------1937 Ford Sedan black w/white numbers
-11848---------------------03/25/43 GPW # 104022
-12996---------------------42 WW2 jeep at Naval Gunnery School, Oklahoma in '44
-14403---------------------M-1-4-555 IHC 1/2 ton Ambulance-6 volt- Contract NOm 28691-one of 9.
-14406---------------------M-1-4-555 IHC 1/2 ton Ambulance-6 volt Samoa 10/42-one of 9.
-15230---------------------GPW ( Painted Gray with Yellow Numbers )
-15684---------------------10/43 GPW # 152215
-17246---------------------R-4-D ? Medic Transport Airplane ( Iwo Jima )
-19508---------------------2/42 GPW # 227
-24467---------------------42 GPW script w/flat grill pre 5/1/42 ?
-25900---------------------07/02/42 GPW # 41935
---------------30592-------M-5-6 IHC swb Tractor
---------------32572-------WW2 M-1-4 1/2 ton
---------------32813-------WW2 M-1-4 1/2 ton
---------------32872-------M2-4
-33001---------------------42 GTBS Bomb Truck to
--++----------33159-------M-1-4 IHC 1/2 ton cargo
--++----------33998-------M2-4 IHC cargo non-winch - Samoa - Summer 42
--++----------34281-------M2-4 IHC cargo
--++----------34383-------M2-4 IHC cargo
-34500---------------------42-43 GTBS Bomb Truck inclusive
---------------37136-------Slat Grille MB on Bougainville 11/15/43 - Ebay Photo
---------------37150-------WW2 MB/GPW in the Solomon Islands 1942
---------------37229-------04/14/42 MB # 136066
---------------37353-------42 MB 'contract' "COMAIRSOLS" Awarded Medal (std. grill ?)
---------------37430-------02/16/42 MB # 118650 Slat grill - Body # 22621 USMC contract
---------------37460-------42 MB Slat grill USMC - No Glove Box
---------------37467-------WW2 jeep ( Script MB ? )
---------------37500-------41 Ford GP Series 1
---------------38168-------12/44 MB USMC # under Navy 293339 number
-39224---------------------42 GPW w / motor # 48488
-39252---------------------10/?/42 GPW # 70219 ( Painted Gray over OD )
-39277---------------------42 GPW w / motor # 50975
-39461---------------------GTBS Bomb Truck to
-39780---------------------43 GTBS Bomb Truck # 141505
-39960---------------------GTBS Bomb Truck inclusive
---------------4001x-------42 MB script
---------------40071-------42 MB script - Glove Box - New River, N.C. 05/42
---------------40074-------42 MB script - Glove Box - New River, N.C. 05/42
---------------4007x-------42 MB script - Glove Box
---------------40211-------42 MB # 136430 NOM
---------------40246-------42 MB - Glove Box - C in a Diamond on right side
---------------40259-------42 MB - with Hooks and rings
---------------40416-------WW2 IHC woody Station Wagon
---------------42761-------WW2 jeep
---------------42764-------WW2 jeep
---------------43761-------42 MB-NOM New River, NC June 27, 43
---------------43764-------05/13/43 MB # 234096 NOM-12 (Radio jeep ?) on Tarawa
---------------43820-------42 script MB ( USMC contract ) on Guadalcanal
---------------43925-------MB
---------------44013-------MB Holden Amb. Guam 44 1st Bn,9th Mar,3rd Mar. Div.
---------------45397-------MB Holden Ambulance Saipan 44
---------------45406-------MB-NOM DoD before 08/42 2nd Div. 6th Mar stamped grill
---------------45434-------MB
---------------45610-------WW2 jeep
---------------45xxx-------MB Holden Ambulance in Australia 08/43
---------------45618-------MB Holden Ambulance ( Hooks & Rings ) in Australia
---------------45669-------MB (Script & Glove Box) Holden Ambulance in Australia
---------------45764-------MB
---------------45937-------MB Holden Ambulance in Australia
---------------45948-------42 or very early 43 MB
---------------46012-------MB Holden Amb. on Bougainville in 43. Short top
---------------46047-------42 MB
---------------46149-------MB Holden Ambulance ( Hooks & Rings ) in Australia
-46534---------------------Ford GPW - USS Lexington ( CV-16 ) Nov., 43.
---------------47340-------IHC M2-4 2523-6 volt-Contract NOm 35773- one of 500.
---------------48497-------WW2 jeep
---------------48544-------WW2 jeep
---------------48635-------WW2 jeep
---------------48649-------GPW
---------------48837-------42 GPW
---------------49256-------42 MB ( Guadalcanal 11/12/45 )
-49390---------------------07/06/42 GPW # 42986 was Army # 20129912
-50222---------------------03/10/42 GPW
-50586---------------------42 IHC M-3L-4
---------------51276-------WW2 jeep
---------------51294-------WW2 jeep
---------------51559-------MB # 202579
---------------51689-------MB
---------------51703-------MB MZ-2 # 766 Radio jeep
---------------51918-------GPA w/30 cal. Machine Gun
---------------52052-------GPA
---------------52805-------WW2 jeep Marine Corp Radio jeep
---------------52806-------March or after, 45 MB MZ-2 ? Marine Corp Radio jeep
---------------53016-------43 MB # 206842 MZ Marine Corp Radio jeep - post war USN 94-14541
---------------53038-------MB Radio jeep
---------------53066-------MB MZ Radio jeep on Iwo Jima
---------------53095-------MB Radio jeep
---------------53153-------43 MB # 206988 MZ Marine Corp Radio jeep - Body # 2260 ( ACM type 1)
---------------53204-------43 MB # 279864 Marine Corp Radio jeep
---------------53223-------MB Marine Corp Radio jeep MZ-? body (repainted Gloss FG)
---------------53277-------MB # 270693-? MZ-2 #1418 Radio jeep (Body #4294, ACM-2 type)
----------------- ? ---------44 MB # 383469 MZ-2 #1881 - post war USN 94-22197
---------------53281-------WW2 jeep Marine Corp Radio jeep
---------------53350-------MB NOM-12 Radio jeep 1 Div. Guadalcanal Sept.11, 43
---------------53416-------WW2 jeep MZ-2 Radio jeep
---------------53484-------WW2 jeep Okinawa
---------------53476-------MB USMC Radio jeep 1 Div. Guadalcanal Sept.11, 43
---------------53521-------MB MZ Radio jeep on Iwo Jima
-53565---------------------WW2 6x6 International Fuel Truck - at a Pearl harbor Navy Yard in 44 or 45
---------------53787-------MB MZ Radio jeep on Iwo Jima
---------------53958-------10/10/45 MB # 459512 Navy Basic Radio jeep ( ACM type 2 Body # 150313 )
---------------53960-------MB MZ Radio jeep on Iwo Jima
---------------54175-------43 MB 209170
---------------54198-------05/20/43 ? MB NOM-12 Radio jeep ( Body # 3790 ) Data Plates & frame tag missing.
-- ? -------------?----------MB NOM-12 Radio jeep (body only # 3983) (ACM type 1 )
---------------54343-------MB MZ Radio jeep on Iwo Jima
---------------54419-------MB MZ Radio jeep on Iwo Jima
---------------54425-------MB Radio jeep - MAG 21
---------------54x54-------MB
---------------54597-------MB - w/ Hooks, Factory BODL, Metal spoke S/W
---------------54621-------MB MZ Radio jeep on Iwo Jima
---------------55069-------05/43 MB # 232625 - Motor # 257050
---------------55309-------44 MB
---------------55310-------Water/Fuel Bowser - Trailer ? - Okinawa
-56342---------------------06/24/44 MB # 345918 also USN 2039413 ?
---------------56372-------WW2 jeep - Okinawa
---------------56745-------Late 42 to mid 43 GPW in Japan, 1946
---------------57624-------12/42 M3A1 Scout Car # 258922
---------------57625-------M3A1 Scout Car
---------------61072-------WC 55
---------------61105-------WC 55
-61794---------------------44 MB MZ-2 #344
-62059---------------------WW2 jeep
---------------62654-------IHC M 2-4 # 4544 w/winch
---------------62806-------IHC M 2-4 # 5688
---------------65428-------IHC 44 M 2-4 # 7100 w/winch
---------------65647-------44 or 45 WW2 jeep - Life Mag. in 1949
---------------66340-------MBT 1/4 ton Trailer
---------------66406-------MBT 1/4 ton Trailer
---------------66492-------WW2 1/4 ton Trailer
-66887---------------------WW2 jeep
---------------67159-------IHC M5H6 LWB seen in Japan. also USN 296139
-67486---------------------WW2 jeep at Attu
---------------67864-------IHC M 5-6 open cab
---------------69823-------WW2 jeep @ Camp Pendleton in '43.
---------------70034-------WW2 jeep
---------------70058-------10/26/42 GPW # 74166
---------------70373-------GPW
---------------71699-------WW2 jeep
---------------71845-------04/29/44 GPW 199077 was Army # 20522855
---------------71938-------WW2 GPW ? Holden Ambulance - Tall Frame Guam 48.
---------------71952-------WW2 Holden Ambulance - Tall Frame
---------------71999-------WW2 Holden Ambulance at Saipan
---------------72011-------WW2 jeep
---------------72012-------WW2 jeep
---------------72xxx-------GPW Holden Amb. 1st Div. on Palan Island in 44 - Tall top.
---------------7282x-------GPW Holden Ambulance 1th Div. 09/14/44
-73233---------------------42 GPW ( hood is marked 'US Naval Air Station' )
-73530---------------------WW2 jeep
---------------742xx-------WW2 jeep
---------------75371-------WW2 jeep Holden Ambulance
---------------75433-------GPW - 1st Tank Battalion - Peleliu Island, Palau. Sept. 18, '44
---------------75911-------M3 75 GMC Halftrack - Training Guadalcanal - 3rd Mar. Div.
---------------79013-------WW 2 GPW ? Holden Amb. - Tall Frame - 2nd Mar. Div.
---------------79287-------41 IHC K1 Metro Van
---------------79344-------GPW Holden Amb. - Tall Frame - on Iwo Jima
---------------79354-------GPW Holden Amb. - Tall Frame - Korea Sept. 9, 50.
---------------79355-------WW2 jeep Holden Ambulance
---------------79359-------WW2 jeep Holden Ambulance
---------------79373-------WW2 jeep Ambulance 5th Div. Iwo Jima
---------------79486-------GPW Holden Ambulance Saipan N. Mariana Islands 08/44.
---------------79527-------GPW # 117918
---------------79576-------GPW # 109730 - Richmond
---------------79583-------WW2 jeep Holden Ambulance exiting a LST 23 Feb. '45.
-79605---------------------1938 Reo 2.5 ton Dump gray w/black numbers
------------------?----------GPW # 162579 - Richmond
-81114---------------------08/?/42 GPW # 52726 USA # 20132506
---------------83037-------WW2 1/4 ton Trailer
---------------84237-------WW2 jeep ( Okinawa - Ernie Pyle )
---------------85321-------GPW
-87071---------------------08/04/42 GPW # 54539
---------------87169-------09/43 MBT # 41174 - marked H&S
---------------87198-------1/4 ton trailer ( on Okinawa ? )
-87223---------------------MB # 212xxx
-87326---------------------43 GPW # 107860
---------------88090-------WW2 jeep
-88419---------------------WW2 jeep
-88667---------------------03/28/43 GPW # 104111 Army # 20369245. #s in Yellow
-89000---------------------43 GTBS Bomb Truck to
--++----------89373-------GPW on Iwo Jima 5th Marine Div. ( 721 ) marked
--++----------89645-------WW2 jeep on Iwo Jima
--++----------89777-------WW2 jeep Holden Ambulance on Iwo Jima
-89799---------------------43 GTBS Bomb Truck inclusive
-89800---------------------43 GTBA to
-90229---------------------43 GTBA inclusive
-90300---------------------43 GTBB to
-90349---------------------43 GTBB inclusive
---------------91333------- ?
---------------92127-------WW2 jeep on Iwo Jima
---------------92424-------MB ?
---------------94403-------IHC M 2-4 at Camp Pendleton, Ca. 05/05/49
---------------94937-------WW2 jeep on Iwo Jima
---------------95390-------IHC M 2-4 # 9054 - Contract NoM 40397
---------------96579-------GPW test jeep Quantico, Va. Oct. 1949
-98926---------------------GTB Gray w/ Black Numbers
---------------99534-------WW2 1/4 ton Trailer
101000---------------------43 & 44 GTBC to
--++---------101291-------WW2 jeep Follow Me w/ Radio - Japan Dec. 1945
--++---------101724-------MB USMC contract jeep
--++---------103898-------43 through 45 MB
--++---------105008-------Mobile Shoe and Textile repair trailer
--++---------105281-------44 IHC M-2-4
104503---------------------43 & 44 GTBC inclusive
--------------105924-------44 MZ-2 # 391532 ACM-2 Body # 152022 CVD 10182-D
---------------- ? -----------12/29/44 MZ-2 # 391542 ( SCR - 508 ) CVD 10182-C
107200---------------------43 & 44 GTBA to
108199---------------------43 & 44 GTBA inclusive
108200---------------------43 GTBA to
--++---------108301-------44 GPW # 229991 Army # 20583685
--++---------108544-------WW2 jeep
--++---------108990-------WW2 jeep
108918---------------------43 GTBA inclusive
--------------109913-------WW2 jeep
-----------------?-----------01/15/45 MB # 406710 Holden Ambulance
--------------110021-------02/06/45 MB # 414346 Holden Ambulance
--------------110433-------WW2 1/4 Trailer - has H in a Diamond - Korea
--------------111149-------03/07/45 MB # 423563 Holden Ambulance
--------------111584-------02/15/45 MB # 417318 ( Hood # ? )
--------------113553-------MB ?
--------------113595-------05/01/45 MB # 438042
113559---------------------42 IHC M-3L-4 Crash Truck ( Model FFN-3 ) # changed to 71-00489
113650---------------------43 GTBC to
114848---------------------43 GTBC inclusive
--------------114490-------WW2 jeep
--------------114537-------44 GPW ( old Army # was 20549234 )
114849---------------------03/44 GTBD Swing Boom Bomb Truck
--------------115096-------05/18/44 MB # 330488
--------------117159-------44/45 GPW Radio AN/MRC-5
--------------117221-------07/12/44 MB # 397889 ?
--------------117379-------WW2 jeep
117786---------------------43 GPW w / motor # 129259
119487---------------------43 GPW # 104002 Black Navy #s on 1st OD layer
119996---------------------GPW at NAS - Honalulu
--------------120310-------MB - Radio type body without radios
120569---------------------GPW at NAS - El Toro
128823---------------------IHC M3-4 with MAG 35 USMC markings
--------------132494-------44 GPW
133442---------------------44 MB # 352520 MZ-1 Radio jeep (Body # 3859)
133738---------------------44 MB # 443542 MZ-1 Radio jeep
133744---------------------MB MZ-1 Marine Air Group 25 Radio jeep
133818---------------------44 MB # 352625 MZ-1 Radio jeep (Body # 4235)
135252---------------------WW2 jeep
135333---------------------GPA
140321---------------------43 GPW w / motor # 149942
142064---------------------WW2 jeep on the USS Cowpens
147409---------------------GPA
--------------153858-------WW2 jeep on dock prior to Leyte landing
155600---------------------WW2 jeep Hawaii 1945
--------------156036-------WW2 jeep
156843---------------------43 GPW # 152215
--------------157371-------WW2 jeep ( Marine Corp test jeep in Va. )
158714---------------------WW2 jeep at Guantanamo Bay
--------------166546-------MB # 270693
170296---------------------MB - Restored as an Army MB
--------------173852-------WW2 jeep
176201---------------------41 MA series 2 in a pineapple field in Hawaii early '46
178751---------------------WW2 jeep
183003---------------------43 1/2 ton Chevy pickup ( new at the factory)
192263---------------------MB ( Slat Grill ?)
192877---------------------WW2 jeep
194918---------------------MB
195086---------------------02/42 GPW # 227
196742---------------------WW2 Chevy bus
197452---------------------WW2 AC 625 5 ton 4 X 2 GMC dump truck
201219---------------------MB
203778---------------------WW2 GMC bus
204338---------------------41 WC 1 1/2 ton Dodge
204784---------------------44 MB w/ invasion star in UK since the war
205443---------------------GPW
205686---------------------MB
207997---------------------WW2 jeep at NAD Ohau
208024---------------------WW2 jeep at Pearl Harbor
208214---------------------12/16/44 GPW # 239979 ( black on gray )
209481---------------------44 MB w / # MB 479768 motor
209484---------------------44 MB w / # MB 477027 motor
209485---------------------44 MB w / # MB 47990x motor
209894---------------------WW2 jeep - Philippines '44 or '45
210183---------------------1/31/45 MB # 412142
220718---------------------WW2 CCKW GMC 6 X 6
-------------225803--------5th Wheel Bus Trailer
228394---------------------01/24/42 WC 21 Dodge Army # 240248
230545---------------------WW2 jeep
240017---------------------WW2 jeep
240160---------------------04/18/45 # MB 436092 Army # 20722709. Navy # on
------------------------------gas tank well in Yellow.
242587---------------------WW2 jeep
249372---------------------08/09/44 MB # 355590
250417---------------------42 1 1/2 ton 4 X 2 Chevy Panel
252196---------------------03/21/45 MB # 428267 ( Navy Gray w/ black numbers )
252367---------------------03/45 MB ( Painted Flightline Yellow w/black numbers)
252806---------------------02/43 GMC CCKW - K 60 ( C ) # 1699193-1
257988---------------------08/08/44 GPW # 217225 started out as USA 20550634
258583---------------------WW2 jeep
259085---------------------05/14/45 GPW # 269651
259095---------------------45 GPW # 267616
259212---------------------45 GPW # 269945 ( Painted Flightline Yellow )
259554---------------------45 MB # 458802 DOD 8/10/45
260934---------------------42 GPW # 56586
262138---------------------10/30/41 Dodge 1/2 ton WC 22
262273---------------------WC 21 1/2 ton Dodge
268000---------------------44 GPW # 212405
268015---------------------44 GPW # 197681 started out as USA 20533433
268356---------------------09/13/45 MB # 447770
288394---------------------WW2 jeep at Subic Bay
293339---------------------12/44 MB Navy # over USMC 38168 number
294289---------------------WW2 jeep at NAS Adak
295134---------------------08/45 MB # 458861 - ACM 2 body # 261647
295142---------------------08/09/45 MB # 458548 - ACM 2 body # 261486
296139---------------------IHC M5H6 LWB seen in Japan. also USMC 67159
296948---------------------WW2 jeep - was in Virginia in Feb. 1951
297190---------------------44 IHC M-2-4 Same vehicle as USMC # 105281
297941---------------------M5H6 IHC Dump
387853---------------------WW2 1 1/2 ton Chevy 4 X 4
2064094--------------------04/42 GPW # 9552 Army # used by the Navy
20359005------------------03/09/43 MB # 267224 Army # used by Navy
20670082------------------01/45 MB # 403852 Army # used by the Navy
20692324------------------05/05/45 MB # 440049 Army # used by Navy
20709182------------------45 MB Army # used by the Navy
------------Post War Numbers
--------------124214-------12-60 M38A1 # 86040
-----------------?------------12-60 M38A1 # 86046
-----------------?------------11-62 M38A1 # 88559
-----------------?------------11-62 M38A1 # 88590
--------------156501-------?-49 V35U Prototype
--------------162038-------?-50 V35U # 10018
--------------162237-------?-50 V35U # --?--
--------------162285-------?-50 V35U # 10410
--------------162381-------?-50 V35U # 10174
--------------162537-------?-50 V35U # 10588
--------------162760-------4-50 V35U # 10670--Hood number may be an estimate.
--------------162732-------?-50 V35U # 10863
-----------------?-----------?-50 V35U # 10981
--------------162996-------?-50 V35U # 11000
--------------171165-------05/51 M38 # 20450
--------------176272-------M37
--------------179846-------M422 prototype by Research Corp. 1 of 12
--------------179849-------M422 prototype by Research Corp. 1 of 12
--------------179851-------M422 prototype by Research Corp. 1 of 12
--------------183683-------02/53 M38A1 # 41158
--------------190356-------M38A1 # 62122
--------------192007-------12/52 M100 Trailer
--------------234365-------M422 # 114
--------------234370-------M422 Photo taken 07/08/63 w/ M38A1 windshield
--------------242366-------12/20/60 M422 # 383
--------------242386-------12/20/60 M422 # 401
--------------242487-------12/21/60 M422 # 474
--------------243239-------04/13/61 M422 #1275
--------------300626-------M422
--------------305508-------06/68 M274A4 Mule - converted to a 2 cyl. from a M274A1.
--------------306773-------M422A1 #2196 ?
--------------307633-------M422A1
--------------307654-------M422A1 # 1793
--------------307995-------M422A1
--------------308160-------M422A1 marked with 730 over a Blue V.
--------------308181-------M422A1 # 3785 ?
--------------309274-------M422A1 # 3047
--------------309294-------M422A1 # 2943
--------------309734-------M422A1 # 3344
--------------309735-------M422A1 # 3349
--------------309790-------M422A1
--------------309799-------M422A1
--------------311380-------09/63 M38A1 # 92558
--------------311711-------M38A1
--------------314401-------65 M37B1 on tailgate
--------------316174-------M38A1
--------------316195-------09/62 M38A1 # 88061
---------------- ? -----------10/64 M38A1 # 94278
--------------316242-------11/64 M38A1 # 95314
--------------316790-------5-62 ? M38A1 # 95530
---------------- ? -----------11/64 M38A1 # 95561
319607---------------------M151
--------------320447-------65 M37B1 on hood (same M37B1 as # 314401)
--------------320727-------65 M416B1
--------------321757-------10/65 M416B1 # 1218
---------------- ? -----------65 M416B1 # 2174
--------------337607-------11/66 M274A2 BMY #3001
--------------343553-------M416
--------------345776-------M416 # 242317
--------------357002-------11/67 Ford M151A1
--------------358686-------01/68 M151A1 # 2R3776
--------------363966-------11-62 M38A1 # 86498
--------------374645-------M109 SPG 155mm
--------------389444-------54 M100
--------------391561-------03/53 M100
404765---------------------M151A2
--------------534474-------86 CUCV 4x4 Ambulance
Last edited by Tom Wolboldt on Wed Aug 20, 2014 11:53 am, edited 216 times in total.
Tom
"GPW Whisperer"
http://www.thegpwstory.com and other WW2 Ford vehicles ( A Troll Free Site )
Please don't feed the trolls !!!!!
Some persons are blind and stupid since they Bash others for Bashing!!!!!!!
Tom Wolboldt
G-Lieutenant General
G-Lieutenant General
 
Posts: 6895
Joined: Fri Jul 02, 2004 3:36 pm
Location: Ohio

Postby Ted Schwartz » Mon Oct 02, 2006 2:20 am

USMC Serial # 53416 is an MZ-2 radio jeep. I found the number on photographs of this jeep. I have no way to confirm the dod of the jeep, however.
Ted Schwartz
USMC 1943? MZ-2
Radio Jeep
Ted Schwartz
Sergeant Major of the Gee
Sergeant Major of the Gee
 
Posts: 408
Joined: Sat Dec 14, 2002 8:38 am
Location: Fogelsville, PA

Postby Dave K. » Wed Oct 04, 2006 4:20 pm

My IHC M-1-4 1/2 ton Cargo has a USMC number of 33159. This was a radio vehicle with shielded harness, 12V gen and so on. Always looking for info on these. Thanks, Dave.
Dave K.
G-Colonel
G-Colonel
 
Posts: 1381
Joined: Sun Jan 05, 2003 8:15 am

Postby Mike W. » Fri Oct 06, 2006 8:11 am

Ok, here are some more Navy number for GM produced vehicles:

41 Chev G7100 1.5 ton 4x4 s/n 14ZP0614657 USN ?
42 Chev 1.5 ton 4x2 panel USN 250417 OD/gray w/blk/yelloww/blk #'s
43 Chev 1/2 ton pickup new at factory USN 183003, there were others in the photo but I couldn't read them
4x GMC AC 625 5 ton dump 4x2 USN 197452
4x GMC CCKW 6x6 USN 220718
4x Chev G7100 1.5 ton 4x4 USN 387853
4x Chev bus USN 196742
4x GMC bus (2) USN 202 USN 203778

1950 and up numbering system, with this system the Navy recycles the vehicle number when it is surveyed out of the Navy.

49 Chev staff car 92-00349 with 1950 & up number system
3/51 Chev 1/2 ton panel s/n 6JPC5951 US Navy 94-04837
54 new 10 ton dump USN 96-15697
55 new 10 ton tractor USN 96-18550
55 Chev 1/2 ton pickup - two in Phx but don't have the numbers (yet)
56 Chev 1/2 ton pickup s/n 3A56L015527 US Navy 94-27160 from same
56 Chev 1/2 ton pickup s/n 3A56L0158xx US Navy 94-27173 (mine) cont#
7/17/57 Chev 1/2 ton pickup s/n 3A57L120936 US Navy 94-30230
70 Chev 1/2 ton pickup Binh Thuy SVN 94-78398
88 Chev Caprice wagon USN 94-436233
8x Chev M1008 CUCV USN 94-24316
3rd generation US Navy 66-74
Tonkin Gulf Yacht Club 69-71
USS Buck DD-761
Mike W.
G-Second Lieutenant
G-Second Lieutenant
 
Posts: 511
Joined: Mon Jan 24, 2005 10:44 am
Location: Hog Valley, Florida

Another USN number for Mike W

Postby The Fireman » Fri Oct 06, 2006 8:48 am

Yo Mike,

For your data base. Dodge WC 21, painted USMC green over the original army od, red lead color under fenders, wheel wells, frame, front and rear axle housings, springs, etc.

DOD 24Jan42, sn 81514359, USA # 240248, USN # 228394

The USN # was hand painted on the front nose piece in yellow.

Have fun,

Frank
The Fireman
SOMVCC
NRG
The Fireman
U.S.M.C. Veteran
U.S.M.C. Veteran
 
Posts: 1058
Joined: Sat Sep 20, 2003 9:52 am
Location: Banjoland, So. Orygun Territorium

Postby Mike W. » Fri Oct 06, 2006 9:00 am

Thanks, added it to the Dodge section of my list.
3rd generation US Navy 66-74
Tonkin Gulf Yacht Club 69-71
USS Buck DD-761
Mike W.
G-Second Lieutenant
G-Second Lieutenant
 
Posts: 511
Joined: Mon Jan 24, 2005 10:44 am
Location: Hog Valley, Florida

Postby Mike W. » Tue Oct 10, 2006 5:42 am

Got another Marine number: International woody station wagon USMC 40416.
3rd generation US Navy 66-74
Tonkin Gulf Yacht Club 69-71
USS Buck DD-761
Mike W.
G-Second Lieutenant
G-Second Lieutenant
 
Posts: 511
Joined: Mon Jan 24, 2005 10:44 am
Location: Hog Valley, Florida

Postby Mark Tombleson » Mon Nov 20, 2006 9:50 pm

--------------48649-------GPW MZ type radio jeep.


133818---------------------44 MB # 353625 MZ-1 Radio jeep (Body # 4235)
133738---------------------44 MB # 443542 MZ-1 Radio jeep
133744---------------------Marine Air Group 25 Radio jeep

My jeep, 133818 is MB 352625
133738 does not have a frame number
133744 MAG 25 is an MZ-1 also.

USMC 53350 is an NOM-12 radio jeep
Add
USMC 37460
USMC 103898
USMC 54198 NOM-12 radio jeep (Body #3790 2-20-43 DOD but missing frame tag and data plate)

More later.
MB-NAVY-MZ-1 352625 - 07/20/44 (DOD est.)
U.S.N. 133818
2nd place Restored Class 2008 Portland Convention
MVPA Hall of Fame - 2013
User avatar
Mark Tombleson
MZ Radio Operator
 
Posts: 8412
Joined: Wed Dec 11, 2002 9:58 pm
Location: Sacramento

Navy/MC Numbers

Postby Tom Wolboldt » Tue Nov 21, 2006 5:33 am

Hi Mark,

Thanks for the data.

USMC # 37460, 103898, and 54198 were already on the list. I added the date to # 103898 and corrected the MB serial # of your MZ-1. I am checking my records to see where I got the frame # for Navy # 133738.
Tom
"GPW Whisperer"
http://www.thegpwstory.com and other WW2 Ford vehicles ( A Troll Free Site )
Please don't feed the trolls !!!!!
Some persons are blind and stupid since they Bash others for Bashing!!!!!!!
Tom Wolboldt
G-Lieutenant General
G-Lieutenant General
 
Posts: 6895
Joined: Fri Jul 02, 2004 3:36 pm
Location: Ohio

Re: Navy/MC Numbers

Postby Mike W. » Wed Nov 22, 2006 8:58 am

Tom Wolboldt wrote: I am checking my records to see where I got the frame # for Navy # 133738.


I have the same frame # for it but don't remember where I got it from. :?
3rd generation US Navy 66-74
Tonkin Gulf Yacht Club 69-71
USS Buck DD-761
Mike W.
G-Second Lieutenant
G-Second Lieutenant
 
Posts: 511
Joined: Mon Jan 24, 2005 10:44 am
Location: Hog Valley, Florida

Postby Mike W. » Thu Nov 30, 2006 7:51 am

Got some more numbers and it appears the Navy number system used in WW2 may have started around 1932, earlier than I thought.

Navy numbers:
1932 Ford Model AA 1 ton canopy express gray w/ black USN 5248
1937 Chev 1 ton canopy express gray w/black USN 6647
1937 Ford sedan black w/white USN 6725
1938 Reo 2.5 ton dump gray w/black USN 79605 (later # assignment?)

Marine numbers:
1939 Mack Model EHU COE 2.5 ton USMC 716
1939 IH D60 2.5 ton tractor USMC 790
1941 IH K3 1 ton dually pickup @ Camp Pendelton USMC 4254
1941 IH K1 Metro Van USMC 79287
3rd generation US Navy 66-74
Tonkin Gulf Yacht Club 69-71
USS Buck DD-761
Mike W.
G-Second Lieutenant
G-Second Lieutenant
 
Posts: 511
Joined: Mon Jan 24, 2005 10:44 am
Location: Hog Valley, Florida

Postby Escort » Sun Dec 17, 2006 1:46 pm

Hello Tom!

I found a new USMC hood #: 101724, Bougainville, ww2. I sent it you in a mail too.

Tibor
Escort
G-Lieutenant Colonel
G-Lieutenant Colonel
 
Posts: 1140
Joined: Tue Sep 12, 2006 6:44 am
Location: Budapest, Hungary

usmc 101724

Postby Tom Wolboldt » Mon Dec 18, 2006 7:24 am

Hi Tibor.

Nothing has came though to my email from you yet. What type of vehicle is USMC 101724?
Tom
"GPW Whisperer"
http://www.thegpwstory.com and other WW2 Ford vehicles ( A Troll Free Site )
Please don't feed the trolls !!!!!
Some persons are blind and stupid since they Bash others for Bashing!!!!!!!
Tom Wolboldt
G-Lieutenant General
G-Lieutenant General
 
Posts: 6895
Joined: Fri Jul 02, 2004 3:36 pm
Location: Ohio

Postby Escort » Mon Dec 18, 2006 3:27 pm

Hi Tom!
Of course jeep MB/GPW! Chevy43 sent a link of the new USMC Museum. In the gallery of this museum can find the photo. The number can see on the front bumper.
Thank chevy43 for sharing that link.
http://www.usmcmuseum.org/exhibits_UncommonValor.asp
Click Isolating Rabaul.

Tibor
Escort
G-Lieutenant Colonel
G-Lieutenant Colonel
 
Posts: 1140
Joined: Tue Sep 12, 2006 6:44 am
Location: Budapest, Hungary

Postby ccandgc » Tue Dec 19, 2006 2:57 pm

USMC M274A4 MULE,
DoD 6/68
USMC # 305508

chad
1971 AMG M151A2 Mutt
1962 Daimler Ferret Mk.1/2 01 EA 43
1966 Stevens M416
Image
User avatar
ccandgc
G-Colonel
G-Colonel
 
Posts: 1249
Joined: Thu Nov 27, 2003 7:17 pm
Location: San Diego, CA

Next

Return to Jeeps used by: USMC, USN, USCG (-NO EBAY-CRAIGSLIST-COMMERCIAL SALES-)

Who is online

Users browsing this forum: No registered users and 3 guests